De musica ligera (Soda Stereo)

a. bm. d. g.
Primero empieza con este riff de bajo pero lo pueden hacer con la viola.

intro:

G|----------------------------------|
D|----------------------------------|
A|-2-2-------5-5--------------------|
E|-----0h3-3-----0h5-5-5------------| Ponganle Feeling

Ella durmio, al calor de las masas

Y yo desperté, queriendo soñarla

Algún tiempo atras, pensé en escribirle
                                   [Bm-G-D]
Y nunca soniè, las trampas del amor

CORO:

Bm-G-D-A       Bm-G-D-A
De aquel amor, de música ligera
Bm-G-D-A       Bm-G-D-A
Nada nos libra, nada más queda aaaaaaaaaaah

y ahora viene otro riff

G|-----------------------------------------------------|
D|-----------------------[2]h[4]p[2]-------------------|
A|-2-2-4-5~--5-5-4-2-0h2------------[4]-[2]------------|
E|------------------2----------------------2-2-0h2-0-0-|

G|------------------------------------|
D|-----------4-2-------------7~-------|
A|-5-5-4-5-5-----4-2-------5---5-7~---|
E|-------------------2/5-7------------|

Bm       G       D         A   [Bm-G-D-A]
No le enviaré, cenizas de rosas
Bm       G       D         A   [Bm-G-D-A]
Ni pienso evitar, sus roces secretos

CORO:
Bm-G-D-A           Bm-G-D-A
De aquel amor, de música ligera
Bm-G-D-A           Bm-G-D-A      Bm-G-D-A
Nada nos libra, nada más queda, nada más queda, nada más...

               ESTE ES EL SOLO DE EN MEDIO Y DEL FINAL
E---------------------------------------------------5*7*5---5-7-7/12---------
B---7/12~-10~-12~-10~-12~--10--7~-5~-7~--------7-----------------------------
G----------------------------------------------------------------------------
D----------------------------------------------------------------------------
A----------------------------------------------------------------------------
E----------------------------------------------------------------------------

E---10-9-10-12-10-9----10-9-----10-9---10-12-10--14-12-14-12-14-15-----------
B-----------------------12-------12-------12---------------------------------
G----------------------------------------------------------------------------
D----------------------------------------------------------------------------
A----------------------------------------------------------------------------
E----------------------------------------------------------------------------

E-14-12-12-14-14/15-14-12/10-10-10-9/10-12-10-9--9*10*9----------------------
B-----------------------------------------------------------------------10---
G----------------------------------------------------------------------------
D----------------------------------------------------------------------------
A----------------------------------------------------------------------------
E----------------------------------------------------------------------------

E--9*10*9---9*10*9---9*10*9---9*10*9---9*10*9-------9*10-*9------------------
B-----------12---------10---------12---------10---------12-------------------
G----------------------------------------------------------------------------
D----------------------------------------------------------------------------
A----------------------------------------------------------------------------
E----------------------------------------------------------------------------

E-10*12*10--12*14*12--14*15*14--15*17*15--17/19~~~---------------------------
B----------------------------------------------------------------------------
G----------------------------------------------------------------------------
D----------------------------------------------------------------------------
A----------------------------------------------------------------------------
E----------------------------------------------------------------------------
CORO:
Bm-G-D-A       Bm-G-D-A
De aquel amor, de música ligera
Bm-G-D-A        Bm-G-D-A
Nada nos libra, nada más queda, nada más queda,
nada más queda, nada más queda, nada más queda,
Anuncios