pic nick en el cuarto b soda stereo acordes al poder!!!

Soda Stereo
Pic-Nic en el 4o. B

AUTOR: Cerati/Bosio/Ficicchia
ALBUM: doble vida
Este tema lo podes tocar tranquilo en la guitarra, aca tenes los acordes Intro

e---0--0--0--0--0--0--0----------
B---5--4--2--0--3--2--0----------
G------------------------2-------
D--------------------------------
A--------------------------------
E--------------------------------

 [ E A D A E ] (8)

E                                 B
Hay una que no puede parar de hablar de glamour
  D                             C#5            E
y el solo piensa en morder su fruta prohibida
                                  D        Am
mi majestad se ha perdido en una multitud
                              C#5            E A
mojando la alfombra con sus sueños de divas

    D        A   E  E A
Picnic en el 4º B
            D          A  E  E A
es una cuestion de voltaje
    D        A   E  E A
picnic en el 4º B
 D             A    E
ya me acostumbraste

                       B         D
Golpean la puerta por decima vez
                            C#5
es que falta alguien por venir
E                                       D              Am
cuando me suba esta cara de gaste y me baje el alcohol
                        C#5                            E A
entre el alud podre asomar mi nariz y salir a la calle

    D        A   E  E A
Picnic en el 4º B
            D          A  E  E A
es una cuestion de voltaje
    D        A   E  E A
picnic en el 4º B
 D             A    C#5
ya me acostumbraste

            Am             C#5
Prefiero vagar sin sentido
         Am               C#5
a empapelar mi habitación
          Am              C#5
crei cambiar aquel sonido
          B
y aqui estoy... bailando esta maldita canción
                    [ E A D A E ] (4)  E A
Esta no es mi noche

    D A E  E A D A E
Picnic..
Anuncios

Acordes Soda stereo Picnic en el 4 b

Acordes de pik nick en el 4 b de Soda Stereo  PAra guitarra  Intro

e---0--0--0--0--0--0--0----------
B---5--4--2--0--3--2--0----------
G------------------------2-------
D--------------------------------
A--------------------------------
E--------------------------------

 [ E A D A E ] (8)

E                                 B
Hay una que no puede parar de hablar de glamour
  D                             C#5            E
y el solo piensa en morder su fruta prohibida
                                  D        Am
mi majestad se ha perdido en una multitud
                              C#5            E A
mojando la alfombra con sus sueños de divas

    D        A   E  E A
Picnic en el 4º B
            D          A  E  E A
es una cuestion de voltaje
    D        A   E  E A
picnic en el 4º B
 D             A    E
ya me acostumbraste

                       B         D
Golpean la puerta por decima vez
                            C#5
es que falta alguien por venir
E                                       D              Am
cuando me suba esta cara de gaste y me baje el alcohol
                        C#5                            E A
entre el alud podre asomar mi nariz y salir a la calle

    D        A   E  E A
Picnic en el 4º B
            D          A  E  E A
es una cuestion de voltaje
    D        A   E  E A
picnic en el 4º B
 D             A    C#5
ya me acostumbraste

            Am             C#5
Prefiero vagar sin sentido
         Am               C#5
a empapelar mi habitación
          Am              C#5
crei cambiar aquel sonido
          B
y aqui estoy... bailando esta maldita canción
                    [ E A D A E ] (4)  E A
Esta no es mi noche

    D A E  E A D A E
Picnic..

De musica ligera (Soda Stereo)

a. bm. d. g.
Primero empieza con este riff de bajo pero lo pueden hacer con la viola.

intro:

G|----------------------------------|
D|----------------------------------|
A|-2-2-------5-5--------------------|
E|-----0h3-3-----0h5-5-5------------| Ponganle Feeling

Ella durmio, al calor de las masas

Y yo desperté, queriendo soñarla

Algún tiempo atras, pensé en escribirle
                                   [Bm-G-D]
Y nunca soniè, las trampas del amor

CORO:

Bm-G-D-A       Bm-G-D-A
De aquel amor, de música ligera
Bm-G-D-A       Bm-G-D-A
Nada nos libra, nada más queda aaaaaaaaaaah

y ahora viene otro riff

G|-----------------------------------------------------|
D|-----------------------[2]h[4]p[2]-------------------|
A|-2-2-4-5~--5-5-4-2-0h2------------[4]-[2]------------|
E|------------------2----------------------2-2-0h2-0-0-|

G|------------------------------------|
D|-----------4-2-------------7~-------|
A|-5-5-4-5-5-----4-2-------5---5-7~---|
E|-------------------2/5-7------------|

Bm       G       D         A   [Bm-G-D-A]
No le enviaré, cenizas de rosas
Bm       G       D         A   [Bm-G-D-A]
Ni pienso evitar, sus roces secretos

CORO:
Bm-G-D-A           Bm-G-D-A
De aquel amor, de música ligera
Bm-G-D-A           Bm-G-D-A      Bm-G-D-A
Nada nos libra, nada más queda, nada más queda, nada más...

               ESTE ES EL SOLO DE EN MEDIO Y DEL FINAL
E---------------------------------------------------5*7*5---5-7-7/12---------
B---7/12~-10~-12~-10~-12~--10--7~-5~-7~--------7-----------------------------
G----------------------------------------------------------------------------
D----------------------------------------------------------------------------
A----------------------------------------------------------------------------
E----------------------------------------------------------------------------

E---10-9-10-12-10-9----10-9-----10-9---10-12-10--14-12-14-12-14-15-----------
B-----------------------12-------12-------12---------------------------------
G----------------------------------------------------------------------------
D----------------------------------------------------------------------------
A----------------------------------------------------------------------------
E----------------------------------------------------------------------------

E-14-12-12-14-14/15-14-12/10-10-10-9/10-12-10-9--9*10*9----------------------
B-----------------------------------------------------------------------10---
G----------------------------------------------------------------------------
D----------------------------------------------------------------------------
A----------------------------------------------------------------------------
E----------------------------------------------------------------------------

E--9*10*9---9*10*9---9*10*9---9*10*9---9*10*9-------9*10-*9------------------
B-----------12---------10---------12---------10---------12-------------------
G----------------------------------------------------------------------------
D----------------------------------------------------------------------------
A----------------------------------------------------------------------------
E----------------------------------------------------------------------------

E-10*12*10--12*14*12--14*15*14--15*17*15--17/19~~~---------------------------
B----------------------------------------------------------------------------
G----------------------------------------------------------------------------
D----------------------------------------------------------------------------
A----------------------------------------------------------------------------
E----------------------------------------------------------------------------
CORO:
Bm-G-D-A       Bm-G-D-A
De aquel amor, de música ligera
Bm-G-D-A        Bm-G-D-A
Nada nos libra, nada más queda, nada más queda,
nada más queda, nada más queda, nada más queda,

River PLate -Soda Stereo 2007

Shows recitales , confirmaciones de fechas en latinoamerica, Soda Stereo es una banda de aquellas , La escena local ( LAtinoamericana) no pudo sacar hasta hoy y con 10 años de ventaja , una banda como soda stereo , y viendo como esta elpanorama, no hay mas megabandas como esta , o u2 o los stones, etcc…  ( salvando las distancias ). Señores , me parece que el marketing esta haciendo estragos con si mismo , tanta segmentacon , tanto nnicho de mercado , tantas cuestiones de vender el producto por la venta en simisma , hicieron que sea mas importante elmarketing que el producto en si , Soda stereo , ( hoy en este blog como referencia de antiguas bandas legendarias, en este blog ) nos muestra que se puede dar un producto de calidad ….. Yque bandas ….banmdas eran las de antes …..jejejeje

Disculpen la calidad , ustedes sabran apreciar., de musica Ligera, Ceratt, z Bosio, Alberti      … saludos totales